475. Tabella delle prestazioni della Johansson 6700. 
Quella che segue è una tabella che illustra i valori misurati dal prelievo del mio 5° CAD Fracarro, per vedere dove la Johansson 6700 lavora al meglio al variare del livello d'uscita ( potenza ) con tutti i 32 multiplex selezionati, dal suo minimo di 93 dBuV al suo massimo di 113 dBuV, sulla frequenza ch. 49 di Mediaset.

---------------------------------------------------------------


dBuV-------C/N--------MER-------CBER--------VBER

93--------->27.3--------31.0-------2.0E-4------<1.0E-7- dal 1° CAD 14 / 63 dBuV / ch. 49

93--------->26.4--------29.2-------5.2E-4------<1.0E-7- dal 5° CAD 14 / 59 dBuV / ch. 49
94--------->27.7--------30.3-------4.5E-4------<1.0E-7
95--------->28.8--------30.9-------3.0E-4------<1.0E-7
96--------->29.6--------31.0-------3.3E-4------<1.0E-7
97--------->30.4--------31.4-------2.9E-4------<1.0E-7
98--------->31.0--------31.5-------2.5E-4------<1.0E-7
99--------->32.0--------31.5-------2.2E-4------<1.0E-7

100------->33.0--------32.0-------2.4E-4------<1.0E-7
101------->34.0--------32.0-------2.2E-4------<1.0E-7
102------->34.2--------32.2-------2.0E-4------<1.0E-7
103------->33.9--------31.5-------2.0E-4------<1.0E-7

104------->32.3--------30.9-------2.2E-4------<1.0E-7
105------->30.1--------29.8-------3.9E-4------<1.0E-7
106------->29.3--------28.5-------4.2E-4------<1.0E-7
107------->28.1--------27.3-------6.3E-4------<1.0E-7
108------->26.6--------25.4-------9.9E-4------<1.0E-7
109------->24.8--------23.7-------1.9E-3------<1.0E-7
110------->23.0--------21.8-------5.0E-2------<1.0E-7

111------->21.1--------20.2-------1.1E-2-------2.7E-6
112------->20.3--------18.9-------2.2E-2-------1.3E-4
113------->18.9--------18.0-------3.6E-2-------2.6E-3

A questo punto, si vede chiaramente che la zona dove rende meglio la centralina con tutti i 32 mux inseriti, è quella che va dai 100 ai 103 dBuV.

Quindi, non è vero che più basso sto e meglio va; come spesso succede, se "strozziamo" troppo l'amplificazione, peggiora il C/N e quello che ci va dietro.

A 110, la barra rossa degli errori del mio Samsung sta ancora a 0.
A 111, affiora di tanto in tanto un 1.
A 112, siamo a 8----13.
A 113, 149 ........ 191, mosaico ai blocchi di partenza, e su altri mux è già partito, tipo il ch. 41 che è meno tonico in partenza = antenna.

Io che stavo sui 96, forse mi "mangiavo" già qualcosina in fatto di qualità finale all'uscita della 6700; se per qualche motivo c'era un degrado momentaneo in antenna, avevo più probabilità di vedere un'attimo di mosaico sui TV, cosa che magari non avrei visto se l'uscita fosse stata settata a 102 dBuV.

Adesso devo far la prova con meno di 32 multiplex di programmazione all'interno della 6700, così verifichiamo se la zona "clou" si sposta dai 100 - 103. A dopo.

---------------------------------------------------


Togliendo 8 mux : i ch. 21, 27, 31, 38, 41, 56, 57, 59, e rimanendo con solo 24, le cose non sono cambiate di molto, diciamo che la zona "clou" si è un pelo ampliata, da 100 a 104, a 111 dBuV si sono raggiunti gli 1.0E-7 sul dopo Viterbi, che prima erano andati persi nella già pesante saturazione, ma si tratta di sfumature; meno mux = meno "bolgia" generale.

Togliamone ancora 8: i ch. 22, 23, 34, 37, 46, 50, 51, 60, e rimarremo con 16 mux UHF!

---------------------------------------------------

Sempre dal 5° CAD 14, con solo 16 mux selezionati: ch.24, 25, 26, 30, 33, 35, 36,
40, 42, 43, 44, 47, 48, 49, 52, 55.


dBuV-------C/N--------MER-------CBER--------VBER

93--------->29.1--------31.4-------3.4E-5------<1.0E-7- dal 1° CAD 14

93--------->25.0--------29.1-------8.8E-5------<1.0E-7- dal 5° CAD 14
94--------->26.0--------29.8-------5.2E-5------<1.0E-7
95--------->27.0--------30.6-------3.7E-5------<1.0E-7
96--------->27.8--------31.0-------2.8E-5------<1.0E-7
97--------->28.2--------31.2-------2.6E-5------<1.0E-7
98--------->28.5--------31.5-------1.9E-5------<1.0E-7
99--------->29.3--------31.8-------1.6E-5------<1.0E-7

100------->30.0--------31.7-------1.9E-5------<1.0E-7
101------->30.4--------31.9-------1.5E-5------<1.0E-7
102------->30.7--------32.2-------3.9E-5------<1.0E-7
103------->31.0--------32.2-------3.7E-5------<1.0E-7
104------->31.2--------32.0-------3.0E-5------<1.0E-7
105------->31.5--------31.8-------2.3E-5------<1.0E-7
106------->31.1--------30.9-------2.8E-5------<1.0E-7

107------->27.6--------30.6-------8.9E-5------<1.0E-7
108------->27.9--------30.2-------8.3E-5------<1.0E-7
109------->27.2--------29.5-------9.4E-5------<1.0E-7
110------->26.1--------28.0-------1.4E-4------<1.0E-7
111------->24.8--------26.8-------2.7E-4------<1.0E-7
112------->23.5--------24.6-------7.3E-4------<1.0E-7
113------->22.3--------23.3-------1.8E-3------<1.0E-7

Eccoci qua, quello che spicca è il valore di CBER alla meno 5, dovuto forse al fatto di aver tolto il ch. 50 che è adiacente al 49, poi è quello di Monte Grande, quindi altra direzione con altro potenziale 49 . . .

Quella misura riferita al 1° CAD 14, fa vedere che con solo 16 mux, la questione non cambia di molto se esco con 93 come con 106, è solo che lo strumento con meno segnale in ingresso ( 59 dBuV qui dal 5° CAD, contro 63 del 1° CAD più 8 mt. di cavo < - 2 dB >, sempre sul ch. 49 ), mi da delle misure più scadenti, che in realtà non derivano tutte dal minimo di 93 impostato sulla Johansson.

Loro dicono che con solo 6 MUX, si può uscire con 110 dBuV.

E difatti qui ce n'è 16, e con 106 dBuV di uscita, va ancora alla grandissima.

---------------------------------------------------------------


Dalbys, sei il boss engineer RF dell'Offel ?

Ti dirò che se un'emittente "spegne", affiora il rumore dato dal CAG, ma si ferma 14 dB sotto al livello degli altri MUX, appena il segnale ritorna, il CAG con calma riporta tutto a livello, però da subito vi sono 10 dB di più che su gli altri MUX, poi come detto scende piano piano al pari degli altri, una finezza degna del validissimo progetto.

Se il pre è inserito, il panettone del solo rumore è più alto rispetto a quando il pre è tenuto spento, quindi un'adiacente col pre attivato, quando il nostro mux selezionato si spegne dal trasmettitore, viene interessato un po' di più, allora se non è proprio indispensabile attivarlo, conviene tassativamente tenerlo SPENTO, questo per tanti altri motivi.

Ho fatto la prova con il ch. 28 della Croazia, che stasera arriva a palla, quindi per farlo sparire stacco l'antenna dalla centrale, poi dopo che il finto panettone ha finito di salire, simulo la riaccensione del TX inserendo con decisione il cavo d'antenna, il panettone va oltre il dovuto, poi il CAG lo livella alla perfezione.
Ma i dati dell'adiacente ch. 27 ne risentono pochissimo, direi in maniera trascurabile, quindi problemi ZERO !

Se l'assenza momentanea di un MUX avesse comportato "danni" agli adiacenti, allora questa centrale sarebbe stata più di una mezza ciofeca, invece non è così, va benissimo !

Arriva anche un bel ch. 39 ( 51 dBuV ), con 31 emittenti TV e 4 radio in DVB T2, purtroppo tutte codificate, e gli adiacenti 38 e 40 praticamente non se ne accorgono nemmeno . . .

[ 6 commenti ] ( 118 visite )   |  permalink  |   ( 2.9 / 735 )

<< <Indietro | 6 | 7 | 8 | 9 | 10 | 11 | 12 | 13 | 14 | 15 | Altre notizie> >>