389. Confronti fra 3 tipologie d'antenna ( + le mie 2 loga - full - scars ). 
Questa mattina mi sono sbizzarrito col nuovo palo sali-scendi, per vedere quale delle tre antenne prese in esame avesse guadagnato di più.

Sorprese non ce ne sono state, semmai una gradita conferma.

La tabella che segue fa vedere da sinistra a destra, 5 antenne: la loga-full fissa posta più in alto di dove arriva il palo di prova, la loga-full rotor- orizz. ancora più in alto di 3 metri, sempre su Barbiano Offel III^ IV^ V^, e in cima al palo di prova, una alla volta, con lo stesso spezzone di cavo FMC 00399 d'annata, LP 45 NF FRACARRO, TRE + OFFEL, R 43 Z OFFEL.

La Fracarro è quella mia vecchiotta che uso anche per le prove "fuori porta", e ha ancora l'attacco in punta a morsetto ( niente "F" ).


CH------log-full-fis---log-full-rot---log FR LP 45 NF---Offel 3+---Offel R 43 Z

dBuV.

21------------74-------------77------------------83---------------82-------------81
22------------78-------------81------------------88---------------86-------------88
23------------78-------------80------------------84---------------84-------------84
24------------76-------------72------------------85---------------84-------------85
26------------78-------------72------------------83---------------83-------------84
27------------76-------------78------------------84---------------83-------------85
29------------76-------------77------------------81---------------81-------------82
30------------79-------------75------------------84---------------84-------------85
31------------74-------------72------------------80---------------80-------------81
33------------69-------------69------------------74---------------74-------------76
34------------72-------------74------------------79---------------80-------------81
35------------67-------------69------------------72---------------73-------------75
36------------69-------------69------------------72---------------74-------------75
37------------69-------------69------------------72---------------74-------------76
38------------69-------------68------------------72---------------73-------------75
39------------75-------------74------------------79---------------81-------------83
40------------78-------------77------------------79---------------81-------------83
41------------68-------------67------------------70---------------72-------------74
42------------75-------------75------------------77---------------79-------------81
43------------80-------------78------------------80---------------82-------------85
44------------67-------------67------------------69---------------72-------------73
45------------79-------------77------------------82---------------84-------------86
46------------76-------------76------------------78---------------80-------------82
47------------75-------------74------------------78---------------80-------------82
48------------75-------------73------------------78---------------79-------------81
49------------63-------------62------------------67---------------69-------------70
50------------57-------------55------------------58---------------61-------------61
51------------67-------------63------------------70---------------73-------------74
52------------59-------------56------------------59---------------63-------------64
53------------68-------------61------------------68---------------71-------------72
55------------77-------------72------------------76---------------80-------------81
56------------50-------------48------------------54---------------58-------------59
59------------76-------------72------------------75---------------80-------------80
60------------76-------------73------------------75---------------79-------------79


Le prime due antenne sono più in alto, quindi più cavo, in più guadagnano meno per il forte compromesso di bande III^ + UHF combinate e miniaturizzate.

Il match vero è quello sulle altre tre, con l'approccio "periscopico" a superamento del MURO di confine.

La LP 45 NF è una loga UHF 21 - 69, le altre due Offel sono LTE FREE 21 - 60, però fanno un lievissimo calo che nulla può se la cella è molto vicina e in direzione ( come tutte le altre dal resto ).

Per il rapporto A / I della TRE+, girandomi di 180°, tutto lo spettro cala uniformemente ma meno di 20 dB, 17 sul ch 24 come la loga Fracarro, non si scappa, e anche la R 43 Z fa quello che può.

Meno male che la R 43 Z NON si è fatta superare dalla TRE+, se no in un caso del genere, ci sarebbe stato da dire: "non c'è più RELIGIONE".

La TRE+ bianca ( dal dipolo con coperchietto rettangolare a slitta con "clic" finale ) oramai è "vecchia", costa 45 euro al pubblico, e ci sono già i modelli nuovi con gli attacchi dei dipoli a uovo gialli e bianchi, come il resto dell'antenna.

Le tre protagoniste della prova.


Cosa non si fa per seguire le mode.


C'è anche il dipolo.




Alcune foto fatte da Billy Clay.


POKER


AAAAARRRRGGGH !


Antenna veeeeeeeeecchia !!!

Ma questo pannello Fracarro è messo in verticale tramite un PV 1 ed è inclinato verso l'alto, non si è mica mosso, BELA BILLY, ce ne sono 3 di PV 1 !



FFFFFFFFIACCCCCATA!!! PAAAGAAAAAAA!!!



BUUUUUUUUUUUUUU!!!



10 RD 4 Fracarro sssssgnaaaaaac!!!


Le mie loga son differenti .................


--------------------------


Beh sì Cesare, hai ragione, ma qui si può solo fare la gara a chi guadagna di più, così uno può vedere che per esempio, in B^ IV^ se la giocano tutte e tre pressochè alla pari, poi la FR cala in V^, e che in fondo "queste triple" non sfigurano affatto.
Ma quando sei su un tetto, e hai i mux di Mediaset che ti arrivano molto peggio che a casa mia, perchè ti trovi più "sotto" a Barbiano e sai che per te si mette male . . . sai già che non esiste un'antenna magica che ti migliora anche di soli 10 dB, il rapporto fra il tuo mux e l'eco distruttivo che ti arriva in zona, quindi ti devi orientare su un'altro ripetitore, sperando ti vada meglio e che duri nel tempo.
Tutti 'sti rapporti e 'sti guadagni sempre più alti che dichiarano i costruttori . . . io non vedo dei grandi progressi dalle antenne Fuba serie XC degli anni '70 fino ad oggi, ANZI . . . !
Ciao.

---------------------------


Ezio967, ti ringrazio ma io, sembra che voglia sempre apprendere, diciamo che mi piace far vetrina sul blog, e per esempio, la fibra ottica è roba per gente giovane, io mi sento sempre più out ogni giorno che passa, potrei andar ancora bene come prestatore di mano d'opera in cantieri nuovi dalle fondamenta, come facevo una volta ... costruire tutto l'impianto da cima a fondo, fatto come va fatto!

Si vede che a Malalbergo Velo arriva basso, ma da Barbiano dovresti prendere solo i 4 mux RAI, più forse un ch 42 di E' TV.
Sarà Monte Grande di Calderaro che fa a cazzotti con Velo.
Cesare ed Elettt sono la stessa persona.
Ciao.


[ 2 commenti ] ( 144 visite )   |  permalink  |   ( 2.9 / 1087 )

<< <Indietro | 30 | 31 | 32 | 33 | 34 | 35 | 36 | 37 | 38 | 39 | Altre notizie> >>